ISO-10303-21;
HEADER;
FILE_DESCRIPTION (( 'STEP AP203' ),
    '1' );
FILE_NAME ('BK7-LNPBSC-25.4-1310.STEP',
    '2021-01-05T02:02:03',
    ( '' ),
    ( '' ),
    'SwSTEP 2.0',
    'SolidWorks 2020',
    '' );
FILE_SCHEMA (( 'CONFIG_CONTROL_DESIGN' ));
ENDSEC;

DATA;
#1 = EDGE_LOOP ( 'NONE', ( #113, #181, #249, #32 ) ) ;
#2 = PLANE ( 'NONE',  #253 ) ;
#3 = VERTEX_POINT ( 'NONE', #129 ) ;
#4 = PRODUCT_DEFINITION_FORMATION_WITH_SPECIFIED_SOURCE ( 'ANY', '', #268, .NOT_KNOWN. ) ;
#5 = DIRECTION ( 'NONE',  ( -0.7071067811865474617, -0.7071067811865474617, 0.000000000000000000 ) ) ;
#6 = ORIENTED_EDGE ( 'NONE', *, *, #18, .T. ) ;
#7 = ORIENTED_EDGE ( 'NONE', *, *, #39, .F. ) ;
#8 = ORIENTED_EDGE ( 'NONE', *, *, #105, .F. ) ;
#9 = ORIENTED_EDGE ( 'NONE', *, *, #157, .F. ) ;
#10 = ADVANCED_FACE ( 'NONE', ( #176 ), #2, .F. ) ;
#11 = CARTESIAN_POINT ( 'NONE',  ( 12.69999999999999574, 12.69999999999999574, 12.69999999999999929 ) ) ;
#12 = EDGE_LOOP ( 'NONE', ( #36, #9, #95, #65 ) ) ;
#13 = CARTESIAN_POINT ( 'NONE',  ( 12.69999999999999929, 12.69999999999999929, 12.69999999999999929 ) ) ;
#14 = CARTESIAN_POINT ( 'NONE',  ( 12.69999999999999929, -12.69999999999999929, 12.69999999999999929 ) ) ;
#15 = CC_DESIGN_APPROVAL ( #51, ( #314 ) ) ;
#16 = FACE_OUTER_BOUND ( 'NONE', #12, .T. ) ;
#17 = LINE ( 'NONE', #138, #74 ) ;
#18 = EDGE_CURVE ( 'NONE', #228, #132, #130, .T. ) ;
#19 = PERSON_AND_ORGANIZATION_ROLE ( 'design_owner' ) ;
#20 = CALENDAR_DATE ( 2021, 5, 1 ) ;
#21 = CC_DESIGN_APPROVAL ( #57, ( #78 ) ) ;
#22 = ADVANCED_FACE ( 'NONE', ( #197 ), #147, .F. ) ;
#23 = APPROVAL_STATUS ( 'not_yet_approved' ) ;
#24 = DATE_AND_TIME ( #239, #101 ) ;
#25 = CC_DESIGN_DATE_AND_TIME_ASSIGNMENT ( #141, #121, ( #314 ) ) ;
#26 = COORDINATED_UNIVERSAL_TIME_OFFSET ( 8, 0, .AHEAD. ) ;
#27 = LINE ( 'NONE', #28, #168 ) ;
#28 = CARTESIAN_POINT ( 'NONE',  ( -12.69999999999999751, -12.69999999999999929, 12.69999999999999929 ) ) ;
#29 = ORIENTED_EDGE ( 'NONE', *, *, #188, .F. ) ;
#30 = DIRECTION ( 'NONE',  ( -0.7071067811865474617, -0.7071067811865474617, 0.000000000000000000 ) ) ;
#31 = VERTEX_POINT ( 'NONE', #252 ) ;
#32 = ORIENTED_EDGE ( 'NONE', *, *, #157, .T. ) ;
#33 = LINE ( 'NONE', #133, #69 ) ;
#34 = EDGE_LOOP ( 'NONE', ( #135, #200, #256, #89 ) ) ;
#35 = CARTESIAN_POINT ( 'NONE',  ( -12.69999999999999574, -12.69999999999999396, -12.69999999999999929 ) ) ;
#36 = ORIENTED_EDGE ( 'NONE', *, *, #170, .F. ) ;
#37 = UNCERTAINTY_MEASURE_WITH_UNIT (LENGTH_MEASURE( 1.000000000000000082E-05 ), #191, 'distance_accuracy_value', 'NONE');
#38 = VECTOR ( 'NONE', #210, 1000.000000000000000 ) ;
#39 = EDGE_CURVE ( 'NONE', #31, #158, #248, .T. ) ;
#40 = PLANE ( 'NONE',  #229 ) ;
#41 = EDGE_CURVE ( 'NONE', #158, #60, #27, .T. ) ;
#42 = CARTESIAN_POINT ( 'NONE',  ( 12.69999999999999929, -12.69999999999999929, 12.69999999999999929 ) ) ;
#43 = CARTESIAN_POINT ( 'NONE',  ( 12.69999999999999929, 12.69999999999999929, 12.69999999999999929 ) ) ;
#44 = PERSON_AND_ORGANIZATION_ROLE ( 'creator' ) ;
#45 = DIRECTION ( 'NONE',  ( 0.000000000000000000, 0.000000000000000000, 1.000000000000000000 ) ) ;
#46 = PERSON_AND_ORGANIZATION ( #64, #97 ) ;
#47 = APPROVAL_ROLE ( '' ) ;
#48 = EDGE_CURVE ( 'NONE', #158, #279, #255, .T. ) ;
#49 = AXIS2_PLACEMENT_3D ( 'NONE', #316, #172, #289 ) ;
#50 = VECTOR ( 'NONE', #175, 999.9999999999998863 ) ;
#51 = APPROVAL ( #319, 'UNSPECIFIED' ) ;
#52 = APPLICATION_PROTOCOL_DEFINITION ( 'international standard', 'config_control_design', 1994, #88 ) ;
#53 = SHAPE_DEFINITION_REPRESENTATION ( #246, #169 ) ;
#54 = DIRECTION ( 'NONE',  ( -0.7071067811865475727, 0.7071067811865475727, 0.000000000000000000 ) ) ;
#55 = EDGE_CURVE ( 'NONE', #279, #31, #155, .T. ) ;
#56 = ORIENTED_EDGE ( 'NONE', *, *, #128, .F. ) ;
#57 = APPROVAL ( #23, 'UNSPECIFIED' ) ;
#58 = MANIFOLD_SOLID_BREP ( 'Í¹Ì¨-À', #321 ) ;
#59 = LINE ( 'NONE', #83, #206 ) ;
#60 = VERTEX_POINT ( 'NONE', #109 ) ;
#61 = EDGE_LOOP ( 'NONE', ( #67, #56, #8 ) ) ;
#62 = ORIENTED_EDGE ( 'NONE', *, *, #164, .T. ) ;
#63 = AXIS2_PLACEMENT_3D ( 'NONE', #11, #213, #99 ) ;
#64 = PERSON ( 'UNSPECIFIED', 'UNSPECIFIED', 'UNSPECIFIED', ('UNSPECIFIED'), ('UNSPECIFIED'), ('UNSPECIFIED') ) ;
#65 = ORIENTED_EDGE ( 'NONE', *, *, #142, .T. ) ;
#66 = DIRECTION ( 'NONE',  ( -0.000000000000000000, 0.000000000000000000, 1.000000000000000000 ) ) ;
#67 = ORIENTED_EDGE ( 'NONE', *, *, #18, .F. ) ;
#68 = CARTESIAN_POINT ( 'NONE',  ( -12.69999999999999574, -12.69999999999999396, -12.69999999999999929 ) ) ;
#69 = VECTOR ( 'NONE', #227, 1000.000000000000000 ) ;
#70 = CARTESIAN_POINT ( 'NONE',  ( 0.000000000000000000, 0.000000000000000000, -12.69999999999999929 ) ) ;
#71 = CARTESIAN_POINT ( 'NONE',  ( -12.69999999999999751, -12.69999999999999929, -12.69999999999999929 ) ) ;
#72 = LINE ( 'NONE', #43, #38 ) ;
#73 =( NAMED_UNIT ( * ) SI_UNIT ( $, .STERADIAN. ) SOLID_ANGLE_UNIT ( ) );
#74 = VECTOR ( 'NONE', #159, 1000.000000000000000 ) ;
#75 = MECHANICAL_CONTEXT ( 'NONE', #88, 'mechanical' ) ;
#76 = EDGE_CURVE ( 'NONE', #302, #179, #59, .T. ) ;
#77 = CARTESIAN_POINT ( 'NONE',  ( 0.000000000000000000, 0.000000000000000000, 0.000000000000000000 ) ) ;
#78 = SECURITY_CLASSIFICATION ( '', '', #167 ) ;
#79 = DIRECTION ( 'NONE',  ( -0.7071067811865475727, -0.7071067811865475727, 0.000000000000000000 ) ) ;
#80 = CARTESIAN_POINT ( 'NONE',  ( 12.69999999999999929, 12.69999999999999929, 12.69999999999999929 ) ) ;
#81 = APPROVAL_PERSON_ORGANIZATION ( #145, #57, #123 ) ;
#82 = ORIENTED_EDGE ( 'NONE', *, *, #187, .T. ) ;
#83 = CARTESIAN_POINT ( 'NONE',  ( 12.69999999999999929, 12.69999999999999929, -12.69999999999999929 ) ) ;
#84 = ORIENTED_EDGE ( 'NONE', *, *, #125, .T. ) ;
#85 = DIRECTION ( 'NONE',  ( -0.000000000000000000, 1.000000000000000000, -0.000000000000000000 ) ) ;
#86 = EDGE_LOOP ( 'NONE', ( #84, #309, #275 ) ) ;
#87 = FACE_OUTER_BOUND ( 'NONE', #61, .T. ) ;
#88 = APPLICATION_CONTEXT ( 'configuration controlled 3d designs of mechanical parts and assemblies' ) ;
#89 = ORIENTED_EDGE ( 'NONE', *, *, #148, .T. ) ;
#90 = CC_DESIGN_APPROVAL ( #276, ( #4 ) ) ;
#91 = FACE_OUTER_BOUND ( 'NONE', #185, .T. ) ;
#92 = ORIENTED_EDGE ( 'NONE', *, *, #148, .F. ) ;
#93 = CARTESIAN_POINT ( 'NONE',  ( 0.000000000000000000, 0.000000000000000000, 12.69999999999999929 ) ) ;
#94 = CC_DESIGN_PERSON_AND_ORGANIZATION_ASSIGNMENT ( #219, #238, ( #78 ) ) ;
#95 = ORIENTED_EDGE ( 'NONE', *, *, #128, .T. ) ;
#96 = PLANE ( 'NONE',  #182 ) ;
#97 = ORGANIZATION ( 'UNSPECIFIED', 'UNSPECIFIED', '' ) ;
#98 = DIRECTION ( 'NONE',  ( 0.7071067811865475727, -0.7071067811865475727, 0.000000000000000000 ) ) ;
#99 = DIRECTION ( 'NONE',  ( 0.000000000000000000, 0.000000000000000000, 1.000000000000000000 ) ) ;
#100 = PERSON_AND_ORGANIZATION_ROLE ( 'design_supplier' ) ;
#101 = LOCAL_TIME ( 10, 2, 3.000000000000000000, #270 ) ;
#102 = APPROVAL_STATUS ( 'not_yet_approved' ) ;
#103 = VECTOR ( 'NONE', #5, 1000.000000000000114 ) ;
#104 = ADVANCED_FACE ( 'NONE', ( #87 ), #247, .T. ) ;
#105 = EDGE_CURVE ( 'NONE', #132, #284, #107, .T. ) ;
#106 = EDGE_LOOP ( 'NONE', ( #201, #221, #29 ) ) ;
#107 = LINE ( 'NONE', #183, #317 ) ;
#108 = EDGE_CURVE ( 'NONE', #179, #60, #178, .T. ) ;
#109 = CARTESIAN_POINT ( 'NONE',  ( -12.69999999999999751, -12.69999999999999929, -12.69999999999999929 ) ) ;
#110 = CARTESIAN_POINT ( 'NONE',  ( 12.69999999999999929, 12.69999999999999929, 12.69999999999999929 ) ) ;
#111 = ORIENTED_EDGE ( 'NONE', *, *, #125, .F. ) ;
#112 = ORIENTED_EDGE ( 'NONE', *, *, #48, .F. ) ;
#113 = ORIENTED_EDGE ( 'NONE', *, *, #281, .F. ) ;
#114 = VECTOR ( 'NONE', #233, 1000.000000000000000 ) ;
#115 = VECTOR ( 'NONE', #315, 1000.000000000000000 ) ;
#116 = CC_DESIGN_PERSON_AND_ORGANIZATION_ASSIGNMENT ( #318, #44, ( #4 ) ) ;
#117 = CARTESIAN_POINT ( 'NONE',  ( -12.70000000000000284, 12.70000000000000284, 12.69999999999999929 ) ) ;
#118 = VECTOR ( 'NONE', #203, 1000.000000000000000 ) ;
#119 = PLANE ( 'NONE',  #63 ) ;
#120 = CALENDAR_DATE ( 2021, 5, 1 ) ;
#121 = DATE_TIME_ROLE ( 'creation_date' ) ;
#122 = DATE_AND_TIME ( #20, #173 ) ;
#123 = APPROVAL_ROLE ( '' ) ;
#124 = CARTESIAN_POINT ( 'NONE',  ( 12.69999999999999929, -12.69999999999999929, -12.69999999999999929 ) ) ;
#125 = EDGE_CURVE ( 'NONE', #226, #254, #180, .T. ) ;
#126 = CARTESIAN_POINT ( 'NONE',  ( -12.69999999999999751, -12.69999999999999929, 12.69999999999999929 ) ) ;
#127 = APPLICATION_CONTEXT ( 'configuration controlled 3d designs of mechanical parts and assemblies' ) ;
#128 = EDGE_CURVE ( 'NONE', #284, #228, #33, .T. ) ;
#129 = CARTESIAN_POINT ( 'NONE',  ( -12.70000000000000284, 12.70000000000000284, -12.69999999999999929 ) ) ;
#130 = LINE ( 'NONE', #151, #50 ) ;
#131 = AXIS2_PLACEMENT_3D ( 'NONE', #163, #98, #189 ) ;
#132 = VERTEX_POINT ( 'NONE', #277 ) ;
#133 = CARTESIAN_POINT ( 'NONE',  ( 12.69999999999999574, 12.69999999999999574, 12.69999999999999929 ) ) ;
#134 = FACE_OUTER_BOUND ( 'NONE', #258, .T. ) ;
#135 = ORIENTED_EDGE ( 'NONE', *, *, #76, .T. ) ;
#136 = FACE_OUTER_BOUND ( 'NONE', #34, .T. ) ;
#137 = CARTESIAN_POINT ( 'NONE',  ( 12.69999999999999574, 12.69999999999999574, 12.69999999999999929 ) ) ;
#138 = CARTESIAN_POINT ( 'NONE',  ( 12.69999999999999574, 12.69999999999999574, 12.69999999999999929 ) ) ;
#139 = LOCAL_TIME ( 10, 2, 3.000000000000000000, #244 ) ;
#140 = PLANE ( 'NONE',  #49 ) ;
#141 = DATE_AND_TIME ( #120, #139 ) ;
#142 = EDGE_CURVE ( 'NONE', #228, #226, #17, .T. ) ;
#143 = COORDINATED_UNIVERSAL_TIME_OFFSET ( 8, 0, .AHEAD. ) ;
#144 = PLANE ( 'NONE',  #204 ) ;
#145 = PERSON_AND_ORGANIZATION ( #64, #97 ) ;
#146 = LOCAL_TIME ( 10, 2, 3.000000000000000000, #26 ) ;
#147 = PLANE ( 'NONE',  #265 ) ;
#148 = EDGE_CURVE ( 'NONE', #279, #302, #184, .T. ) ;
#149 = DIRECTION ( 'NONE',  ( -2.220446049250312588E-16, 1.000000000000000000, 0.000000000000000000 ) ) ;
#150 = DIRECTION ( 'NONE',  ( 0.000000000000000000, 1.000000000000000000, 0.000000000000000000 ) ) ;
#151 = CARTESIAN_POINT ( 'NONE',  ( 12.69999999999999574, 12.69999999999999574, 12.69999999999999929 ) ) ;
#152 = ORIENTED_EDGE ( 'NONE', *, *, #188, .T. ) ;
#153 = VECTOR ( 'NONE', #306, 1000.000000000000000 ) ;
#154 = MANIFOLD_SOLID_BREP ( '¾µÏ', #212 ) ;
#155 = LINE ( 'NONE', #110, #261 ) ;
#156 = LINE ( 'NONE', #308, #153 ) ;
#157 = EDGE_CURVE ( 'NONE', #284, #3, #165, .T. ) ;
#158 = VERTEX_POINT ( 'NONE', #310 ) ;
#159 = DIRECTION ( 'NONE',  ( 0.000000000000000000, 0.000000000000000000, -1.000000000000000000 ) ) ;
#160 = ORIENTED_EDGE ( 'NONE', *, *, #41, .F. ) ;
#161 = AXIS2_PLACEMENT_3D ( 'NONE', #93, #234, #166 ) ;
#162 = VECTOR ( 'NONE', #30, 1000.000000000000114 ) ;
#163 = CARTESIAN_POINT ( 'NONE',  ( 12.69999999999999929, 12.69999999999999929, 12.69999999999999929 ) ) ;
#164 = EDGE_CURVE ( 'NONE', #132, #254, #156, .T. ) ;
#165 = LINE ( 'NONE', #117, #245 ) ;
#166 = DIRECTION ( 'NONE',  ( 1.000000000000000000, 0.000000000000000000, 0.000000000000000000 ) ) ;
#167 = SECURITY_CLASSIFICATION_LEVEL ( 'unclassified' ) ;
#168 = VECTOR ( 'NONE', #250, 1000.000000000000000 ) ;
#169 = ADVANCED_BREP_SHAPE_REPRESENTATION ( 'BK7-LNPBSC-25.4-1310', ( #58, #154, #222 ), #211 ) ;
#170 = EDGE_CURVE ( 'NONE', #3, #226, #235, .T. ) ;
#171 = DIRECTION ( 'NONE',  ( 0.7071067811865475727, 0.7071067811865475727, 0.000000000000000000 ) ) ;
#172 = DIRECTION ( 'NONE',  ( 1.000000000000000000, -2.220446049250312588E-16, 0.000000000000000000 ) ) ;
#173 = LOCAL_TIME ( 10, 2, 3.000000000000000000, #143 ) ;
#174 =( NAMED_UNIT ( * ) PLANE_ANGLE_UNIT ( ) SI_UNIT ( $, .RADIAN. ) );
#175 = DIRECTION ( 'NONE',  ( -0.7071067811865475727, -0.7071067811865475727, 0.000000000000000000 ) ) ;
#176 = FACE_OUTER_BOUND ( 'NONE', #305, .T. ) ;
#177 = ORIENTED_EDGE ( 'NONE', *, *, #39, .T. ) ;
#178 = LINE ( 'NONE', #300, #162 ) ;
#179 = VERTEX_POINT ( 'NONE', #287 ) ;
#180 = LINE ( 'NONE', #278, #199 ) ;
#181 = ORIENTED_EDGE ( 'NONE', *, *, #164, .F. ) ;
#182 = AXIS2_PLACEMENT_3D ( 'NONE', #70, #66, #205 ) ;
#183 = CARTESIAN_POINT ( 'NONE',  ( -12.69999999999999574, -12.69999999999999396, 12.69999999999999929 ) ) ;
#184 = LINE ( 'NONE', #14, #294 ) ;
#185 = EDGE_LOOP ( 'NONE', ( #186, #160, #7, #82 ) ) ;
#186 = ORIENTED_EDGE ( 'NONE', *, *, #108, .T. ) ;
#187 = EDGE_CURVE ( 'NONE', #31, #179, #72, .T. ) ;
#188 = EDGE_CURVE ( 'NONE', #60, #302, #257, .T. ) ;
#189 = DIRECTION ( 'NONE',  ( 0.7071067811865474617, 0.7071067811865474617, 0.000000000000000000 ) ) ;
#190 = PLANE ( 'NONE',  #161 ) ;
#191 =( LENGTH_UNIT ( ) NAMED_UNIT ( * ) SI_UNIT ( .MILLI., .METRE. ) );
#192 = COORDINATED_UNIVERSAL_TIME_OFFSET ( 8, 0, .AHEAD. ) ;
#193 = PERSON_AND_ORGANIZATION_ROLE ( 'creator' ) ;
#194 = APPROVAL_ROLE ( '' ) ;
#195 = DIRECTION ( 'NONE',  ( 0.000000000000000000, 0.000000000000000000, 1.000000000000000000 ) ) ;
#196 = AXIS2_PLACEMENT_3D ( 'NONE', #296, #220, #149 ) ;
#197 = FACE_OUTER_BOUND ( 'NONE', #86, .T. ) ;
#198 = DIRECTION ( 'NONE',  ( -2.220446049250312588E-16, 1.000000000000000000, 0.000000000000000000 ) ) ;
#199 = VECTOR ( 'NONE', #79, 999.9999999999998863 ) ;
#200 = ORIENTED_EDGE ( 'NONE', *, *, #187, .F. ) ;
#201 = ORIENTED_EDGE ( 'NONE', *, *, #108, .F. ) ;
#202 = ADVANCED_FACE ( 'NONE', ( #16 ), #119, .F. ) ;
#203 = DIRECTION ( 'NONE',  ( 1.000000000000000000, 0.000000000000000000, 0.000000000000000000 ) ) ;
#204 = AXIS2_PLACEMENT_3D ( 'NONE', #320, #54, #171 ) ;
#205 = DIRECTION ( 'NONE',  ( 1.000000000000000000, 0.000000000000000000, 0.000000000000000000 ) ) ;
#206 = VECTOR ( 'NONE', #304, 1000.000000000000000 ) ;
#207 = ORIENTED_EDGE ( 'NONE', *, *, #142, .F. ) ;
#208 = CARTESIAN_POINT ( 'NONE',  ( 12.69999999999999574, 12.69999999999999574, -12.69999999999999929 ) ) ;
#209 = FACE_OUTER_BOUND ( 'NONE', #1, .T. ) ;
#210 = DIRECTION ( 'NONE',  ( -0.000000000000000000, -0.000000000000000000, -1.000000000000000000 ) ) ;
#211 =( GEOMETRIC_REPRESENTATION_CONTEXT ( 3 ) GLOBAL_UNCERTAINTY_ASSIGNED_CONTEXT ( ( #37 ) ) GLOBAL_UNIT_ASSIGNED_CONTEXT ( ( #191, #174, #73 ) ) REPRESENTATION_CONTEXT ( 'NONE', 'WORKASPACE' ) );
#212 = CLOSED_SHELL ( 'NONE', ( #311, #298, #202, #104, #22 ) ) ;
#213 = DIRECTION ( 'NONE',  ( 2.220446049250312588E-16, -1.000000000000000000, 0.000000000000000000 ) ) ;
#214 = LOCAL_TIME ( 10, 2, 3.000000000000000000, #192 ) ;
#215 = APPROVAL_DATE_TIME ( #266, #57 ) ;
#216 = APPROVAL_DATE_TIME ( #122, #276 ) ;
#217 = FACE_OUTER_BOUND ( 'NONE', #251, .T. ) ;
#218 = ADVANCED_FACE ( 'NONE', ( #280 ), #96, .F. ) ;
#219 = PERSON_AND_ORGANIZATION ( #64, #97 ) ;
#220 = DIRECTION ( 'NONE',  ( 0.000000000000000000, 0.000000000000000000, 1.000000000000000000 ) ) ;
#221 = ORIENTED_EDGE ( 'NONE', *, *, #76, .F. ) ;
#222 = AXIS2_PLACEMENT_3D ( 'NONE', #77, #195, #291 ) ;
#223 = DIRECTION ( 'NONE',  ( -2.220446049250312588E-16, 1.000000000000000000, 0.000000000000000000 ) ) ;
#224 = CARTESIAN_POINT ( 'NONE',  ( 0.000000000000000000, 0.000000000000000000, -12.69999999999999929 ) ) ;
#225 = PRODUCT_RELATED_PRODUCT_CATEGORY ( 'detail', '', ( #268 ) ) ;
#226 = VERTEX_POINT ( 'NONE', #208 ) ;
#227 = DIRECTION ( 'NONE',  ( 1.000000000000000000, -2.220446049250312588E-16, 0.000000000000000000 ) ) ;
#228 = VERTEX_POINT ( 'NONE', #137 ) ;
#229 = AXIS2_PLACEMENT_3D ( 'NONE', #13, #264, #45 ) ;
#230 = DIRECTION ( 'NONE',  ( 1.000000000000000000, 0.000000000000000000, 0.000000000000000000 ) ) ;
#231 = ORIENTED_EDGE ( 'NONE', *, *, #48, .T. ) ;
#232 = DESIGN_CONTEXT ( 'detailed design', #127, 'design' ) ;
#233 = DIRECTION ( 'NONE',  ( -2.220446049250312588E-16, 1.000000000000000000, 0.000000000000000000 ) ) ;
#234 = DIRECTION ( 'NONE',  ( -0.000000000000000000, 0.000000000000000000, 1.000000000000000000 ) ) ;
#235 = LINE ( 'NONE', #285, #115 ) ;
#236 = DIRECTION ( 'NONE',  ( 0.000000000000000000, 0.000000000000000000, -1.000000000000000000 ) ) ;
#237 = ADVANCED_FACE ( 'NONE', ( #91 ), #313, .F. ) ;
#238 = PERSON_AND_ORGANIZATION_ROLE ( 'classification_officer' ) ;
#239 = CALENDAR_DATE ( 2021, 5, 1 ) ;
#240 = CC_DESIGN_PERSON_AND_ORGANIZATION_ASSIGNMENT ( #46, #193, ( #314 ) ) ;
#241 = PERSON_AND_ORGANIZATION ( #64, #97 ) ;
#242 = APPLICATION_PROTOCOL_DEFINITION ( 'international standard', 'config_control_design', 1994, #127 ) ;
#243 = DATE_TIME_ROLE ( 'classification_date' ) ;
#244 = COORDINATED_UNIVERSAL_TIME_OFFSET ( 8, 0, .AHEAD. ) ;
#245 = VECTOR ( 'NONE', #236, 1000.000000000000000 ) ;
#246 = PRODUCT_DEFINITION_SHAPE ( 'NONE', 'NONE',  #314 ) ;
#247 = PLANE ( 'NONE',  #196 ) ;
#248 = LINE ( 'NONE', #80, #103 ) ;
#249 = ORIENTED_EDGE ( 'NONE', *, *, #105, .T. ) ;
#250 = DIRECTION ( 'NONE',  ( -0.000000000000000000, -0.000000000000000000, -1.000000000000000000 ) ) ;
#251 = EDGE_LOOP ( 'NONE', ( #111, #207, #6, #62 ) ) ;
#252 = CARTESIAN_POINT ( 'NONE',  ( 12.69999999999999929, 12.69999999999999929, 12.69999999999999929 ) ) ;
#253 = AXIS2_PLACEMENT_3D ( 'NONE', #126, #150, #274 ) ;
#254 = VERTEX_POINT ( 'NONE', #35 ) ;
#255 = LINE ( 'NONE', #303, #118 ) ;
#256 = ORIENTED_EDGE ( 'NONE', *, *, #55, .F. ) ;
#257 = LINE ( 'NONE', #71, #299 ) ;
#258 = EDGE_LOOP ( 'NONE', ( #177, #231, #307 ) ) ;
#259 = CC_DESIGN_SECURITY_CLASSIFICATION ( #78, ( #4 ) ) ;
#260 = CARTESIAN_POINT ( 'NONE',  ( -12.70000000000000284, 12.70000000000000284, 12.69999999999999929 ) ) ;
#261 = VECTOR ( 'NONE', #85, 1000.000000000000000 ) ;
#262 = DIRECTION ( 'NONE',  ( -0.000000000000000000, -0.000000000000000000, -1.000000000000000000 ) ) ;
#263 = ADVANCED_FACE ( 'NONE', ( #134 ), #190, .T. ) ;
#264 = DIRECTION ( 'NONE',  ( -1.000000000000000000, 0.000000000000000000, 0.000000000000000000 ) ) ;
#265 = AXIS2_PLACEMENT_3D ( 'NONE', #224, #297, #223 ) ;
#266 = DATE_AND_TIME ( #292, #146 ) ;
#267 = PERSON_AND_ORGANIZATION ( #64, #97 ) ;
#268 = PRODUCT ( 'BK7-LNPBSC-25.4-1310', 'BK7-LNPBSC-25.4-1310', '', ( #75 ) ) ;
#269 = DATE_AND_TIME ( #271, #214 ) ;
#270 = COORDINATED_UNIVERSAL_TIME_OFFSET ( 8, 0, .AHEAD. ) ;
#271 = CALENDAR_DATE ( 2021, 5, 1 ) ;
#272 = APPROVAL_DATE_TIME ( #24, #51 ) ;
#273 = CC_DESIGN_PERSON_AND_ORGANIZATION_ASSIGNMENT ( #288, #100, ( #4 ) ) ;
#274 = DIRECTION ( 'NONE',  ( 0.000000000000000000, -0.000000000000000000, 1.000000000000000000 ) ) ;
#275 = ORIENTED_EDGE ( 'NONE', *, *, #170, .T. ) ;
#276 = APPROVAL ( #102, 'UNSPECIFIED' ) ;
#277 = CARTESIAN_POINT ( 'NONE',  ( -12.69999999999999574, -12.69999999999999396, 12.69999999999999929 ) ) ;
#278 = CARTESIAN_POINT ( 'NONE',  ( 12.69999999999999574, 12.69999999999999574, -12.69999999999999929 ) ) ;
#279 = VERTEX_POINT ( 'NONE', #42 ) ;
#280 = FACE_OUTER_BOUND ( 'NONE', #106, .T. ) ;
#281 = EDGE_CURVE ( 'NONE', #254, #3, #283, .T. ) ;
#282 = ORIENTED_EDGE ( 'NONE', *, *, #41, .T. ) ;
#283 = LINE ( 'NONE', #68, #114 ) ;
#284 = VERTEX_POINT ( 'NONE', #260 ) ;
#285 = CARTESIAN_POINT ( 'NONE',  ( 12.69999999999999574, 12.69999999999999574, -12.69999999999999929 ) ) ;
#286 = CC_DESIGN_DATE_AND_TIME_ASSIGNMENT ( #269, #243, ( #78 ) ) ;
#287 = CARTESIAN_POINT ( 'NONE',  ( 12.69999999999999929, 12.69999999999999929, -12.69999999999999929 ) ) ;
#288 = PERSON_AND_ORGANIZATION ( #64, #97 ) ;
#289 = DIRECTION ( 'NONE',  ( 0.000000000000000000, 0.000000000000000000, 1.000000000000000000 ) ) ;
#290 = ADVANCED_FACE ( 'NONE', ( #136 ), #40, .F. ) ;
#291 = DIRECTION ( 'NONE',  ( 1.000000000000000000, 0.000000000000000000, 0.000000000000000000 ) ) ;
#292 = CALENDAR_DATE ( 2021, 5, 1 ) ;
#293 = APPROVAL_PERSON_ORGANIZATION ( #267, #276, #47 ) ;
#294 = VECTOR ( 'NONE', #262, 1000.000000000000000 ) ;
#295 = PERSON_AND_ORGANIZATION ( #64, #97 ) ;
#296 = CARTESIAN_POINT ( 'NONE',  ( 0.000000000000000000, 0.000000000000000000, 12.69999999999999929 ) ) ;
#297 = DIRECTION ( 'NONE',  ( 0.000000000000000000, 0.000000000000000000, 1.000000000000000000 ) ) ;
#298 = ADVANCED_FACE ( 'NONE', ( #209 ), #140, .F. ) ;
#299 = VECTOR ( 'NONE', #230, 1000.000000000000000 ) ;
#300 = CARTESIAN_POINT ( 'NONE',  ( 12.69999999999999929, 12.69999999999999929, -12.69999999999999929 ) ) ;
#301 = CC_DESIGN_PERSON_AND_ORGANIZATION_ASSIGNMENT ( #241, #19, ( #268 ) ) ;
#302 = VERTEX_POINT ( 'NONE', #124 ) ;
#303 = CARTESIAN_POINT ( 'NONE',  ( -12.69999999999999751, -12.69999999999999929, 12.69999999999999929 ) ) ;
#304 = DIRECTION ( 'NONE',  ( -0.000000000000000000, 1.000000000000000000, -0.000000000000000000 ) ) ;
#305 = EDGE_LOOP ( 'NONE', ( #152, #92, #112, #282 ) ) ;
#306 = DIRECTION ( 'NONE',  ( 0.000000000000000000, 0.000000000000000000, -1.000000000000000000 ) ) ;
#307 = ORIENTED_EDGE ( 'NONE', *, *, #55, .T. ) ;
#308 = CARTESIAN_POINT ( 'NONE',  ( -12.69999999999999574, -12.69999999999999396, 12.69999999999999929 ) ) ;
#309 = ORIENTED_EDGE ( 'NONE', *, *, #281, .T. ) ;
#310 = CARTESIAN_POINT ( 'NONE',  ( -12.69999999999999751, -12.69999999999999929, 12.69999999999999929 ) ) ;
#311 = ADVANCED_FACE ( 'NONE', ( #217 ), #144, .F. ) ;
#312 = APPROVAL_PERSON_ORGANIZATION ( #295, #51, #194 ) ;
#313 = PLANE ( 'NONE',  #131 ) ;
#314 = PRODUCT_DEFINITION ( 'UNKNOWN', '', #4, #232 ) ;
#315 = DIRECTION ( 'NONE',  ( 1.000000000000000000, -2.220446049250312588E-16, 0.000000000000000000 ) ) ;
#316 = CARTESIAN_POINT ( 'NONE',  ( -12.69999999999999574, -12.69999999999999396, 12.69999999999999929 ) ) ;
#317 = VECTOR ( 'NONE', #198, 1000.000000000000000 ) ;
#318 = PERSON_AND_ORGANIZATION ( #64, #97 ) ;
#319 = APPROVAL_STATUS ( 'not_yet_approved' ) ;
#320 = CARTESIAN_POINT ( 'NONE',  ( 12.69999999999999574, 12.69999999999999574, 12.69999999999999929 ) ) ;
#321 = CLOSED_SHELL ( 'NONE', ( #237, #10, #290, #263, #218 ) ) ;
ENDSEC;
END-ISO-10303-21;
